  0
SECTION
  2
HEADER
  9
$ACADVER
  1
AC1009
  9
$INSBASE
 10
0.0
 20
0.0
 30
0.0
  9
$EXTMIN
 10
-0.8168815973347136
 20
1.8115175227032749
 30
0.0
  9
$EXTMAX
 10
6.6348578296775651
 20
18.82164176094583
 30
0.0
  9
$LIMMIN
 10
0.0
 20
0.0
  9
$LIMMAX
 10
12.0
 20
9.0
  9
$ORTHOMODE
 70
     0
  9
$REGENMODE
 70
     1
  9
$FILLMODE
 70
     1
  9
$QTEXTMODE
 70
     0
  9
$MIRRTEXT
 70
     1
  9
$DRAGMODE
 70
     2
  9
$LTSCALE
 40
0.6
  9
$OSMODE
 70
   111
  9
$ATTMODE
 70
     1
  9
$TEXTSIZE
 40
0.2
  9
$TRACEWID
 40
0.05
  9
$TEXTSTYLE
  7
ARIAL
  9
$CLAYER
  8
2-7
  9
$CELTYPE
  6
BYLAYER
  9
$CECOLOR
 62
   256
  9
$DIMSCALE
 40
1.0
  9
$DIMASZ
 40
0.125
  9
$DIMEXO
 40
0.0625
  9
$DIMDLI
 40
0.25
  9
$DIMRND
 40
0.0
  9
$DIMDLE
 40
0.0
  9
$DIMEXE
 40
0.0625
  9
$DIMTP
 40
0.0
  9
$DIMTM
 40
0.0
  9
$DIMTXT
 40
0.125
  9
$DIMCEN
 40
0.09
  9
$DIMTSZ
 40
0.0
  9
$DIMTOL
 70
     0
  9
$DIMLIM
 70
     0
  9
$DIMTIH
 70
     1
  9
$DIMTOH
 70
     1
  9
$DIMSE1
 70
     0
  9
$DIMSE2
 70
     0
  9
$DIMTAD
 70
     0
  9
$DIMZIN
 70
     4
  9
$DIMBLK
  1

  9
$DIMASO
 70
     1
  9
$DIMSHO
 70
     1
  9
$DIMPOST
  1

  9
$DIMAPOST
  1

  9
$DIMALT
 70
     0
  9
$DIMALTD
 70
     2
  9
$DIMALTF
 40
25.399999999999999
  9
$DIMLFAC
 40
1.0
  9
$DIMTOFL
 70
     0
  9
$DIMTVP
 40
0.0
  9
$DIMTIX
 70
     0
  9
$DIMSOXD
 70
     0
  9
$DIMSAH
 70
     0
  9
$DIMBLK1
  1

  9
$DIMBLK2
  1

  9
$DIMSTYLE
  2
STANDARD
  9
$DIMCLRD
 70
   256
  9
$DIMCLRE
 70
   256
  9
$DIMCLRT
 70
   256
  9
$DIMTFAC
 40
1.0
  9
$DIMGAP
 40
0.09
  9
$LUNITS
 70
     2
  9
$LUPREC
 70
     4
  9
$SKETCHINC
 40
0.1
  9
$FILLETRAD
 40
0.5
  9
$AUNITS
 70
     0
  9
$AUPREC
 70
     0
  9
$MENU
  1
.
  9
$ELEVATION
 40
0.0
  9
$PELEVATION
 40
0.0
  9
$THICKNESS
 40
0.0
  9
$LIMCHECK
 70
     0
  9
$BLIPMODE
 70
     0
  9
$CHAMFERA
 40
0.0
  9
$CHAMFERB
 40
0.0
  9
$SKPOLY
 70
     0
  9
$TDCREATE
 40
2452392.3517971062
  9
$TDUPDATE
 40
2452554.4613378472
  9
$TDINDWG
 40
0.1809458333
  9
$TDUSRTIMER
 40
0.180943287
  9
$USRTIMER
 70
     1
  9
$ANGBASE
 50
0.0
  9
$ANGDIR
 70
     0
  9
$PDMODE
 70
     3
  9
$PDSIZE
 40
0.0
  9
$PLINEWID
 40
0.0
  9
$COORDS
 70
     2
  9
$SPLFRAME
 70
     0
  9
$SPLINETYPE
 70
     6
  9
$SPLINESEGS
 70
     8
  9
$ATTDIA
 70
     0
  9
$ATTREQ
 70
     1
  9
$HANDLING
 70
  4097
  9
$HANDSEED
  5
103F
  9
$SURFTAB1
 70
     6
  9
$SURFTAB2
 70
     6
  9
$SURFTYPE
 70
     6
  9
$SURFU
 70
     6
  9
$SURFV
 70
     6
  9
$UCSNAME
  2

  9
$UCSORG
 10
0.0
 20
0.0
 30
0.0
  9
$UCSXDIR
 10
1.0
 20
0.0
 30
0.0
  9
$UCSYDIR
 10
0.0
 20
1.0
 30
0.0
  9
$PUCSNAME
  2

  9
$PUCSORG
 10
0.0
 20
0.0
 30
0.0
  9
$PUCSXDIR
 10
1.0
 20
0.0
 30
0.0
  9
$PUCSYDIR
 10
0.0
 20
1.0
 30
0.0
  9
$USERI1
 70
     0
  9
$USERI2
 70
     0
  9
$USERI3
 70
     0
  9
$USERI4
 70
     0
  9
$USERI5
 70
     0
  9
$USERR1
 40
1.0
  9
$USERR2
 40
25.399999999999999
  9
$USERR3
 40
0.0
  9
$USERR4
 40
0.0
  9
$USERR5
 40
0.0
  9
$WORLDVIEW
 70
     1
  9
$SHADEDGE
 70
     3
  9
$SHADEDIF
 70
    70
  9
$TILEMODE
 70
     1
  9
$MAXACTVP
 70
    48
  9
$PLIMCHECK
 70
     0
  9
$PEXTMIN
 10
1.0000000000000000E+020
 20
1.0000000000000000E+020
 30
1.0000000000000000E+020
  9
$PEXTMAX
 10
-1.0000000000000000E+020
 20
-1.0000000000000000E+020
 30
-1.0000000000000000E+020
  9
$PLIMMIN
 10
0.0
 20
0.0
  9
$PLIMMAX
 10
12.0
 20
9.0
  9
$UNITMODE
 70
     0
  9
$VISRETAIN
 70
     1
  9
$PLINEGEN
 70
     0
  9
$PSLTSCALE
 70
     1
  0
ENDSEC
  0
SECTION
  2
TABLES
  0
TABLE
  2
VPORT
 70
     2
  0
VPORT
  2
*ACTIVE
 70
     0
 10
0.0
 20
0.0
 11
1.0
 21
1.0
 12
2.7332139461025231
 22
10.32573997839966
 13
0.0
 23
0.0
 14
0.5
 24
0.5
 15
0.5
 25
0.5
 16
0.0
 26
0.0
 36
1.0
 17
0.0
 27
0.0
 37
0.0
 40
17.498057844305521
 41
1.3665594855305461
 42
50.0
 43
0.0
 44
0.0
 50
0.0
 51
0.0
 71
     0
 72
   100
 73
     1
 74
     2
 75
     0
 76
     0
 77
     0
 78
     0
  0
ENDTAB
  0
TABLE
  2
LTYPE
 70
     3
  0
LTYPE
  2
CONTINUOUS
 70
     0
  3
Solid line
 72
    65
 73
     0
 40
0.0
  0
LTYPE
  2
CENTER
 70
     0
  3
Center ____ _ ____ _ ____ _ ____ _ ____ _ ____
 72
    65
 73
     4
 40
2.0
 49
1.25
 49
-0.25
 49
0.25
 49
-0.25
  0
LTYPE
  2
HIDDEN
 70
     0
  3
Hidden __ __ __ __ __ __ __ __ __ __ __ __ __ _
 72
    65
 73
     2
 40
0.375
 49
0.25
 49
-0.125
  0
ENDTAB
  0
TABLE
  2
LAYER
 70
     6
  0
LAYER
  2
0
 70
     0
 62
     7
  6
CONTINUOUS
  0
LAYER
  2
CENTERLINE
 70
     0
 62
     1
  6
CENTER
  0
LAYER
  2
2-7
 70
     0
 62
     2
  6
CONTINUOUS
  0
LAYER
  2
ADAPTER
 70
     0
 62
     3
  6
CONTINUOUS
  0
LAYER
  2
DRIVE_TANG
 70
     0
 62
     4
  6
CONTINUOUS
  0
LAYER
  2
DRIVE_INPUT
 70
     0
 62
     7
  6
CONTINUOUS
  0
ENDTAB
  0
TABLE
  2
STYLE
 70
     2
  0
STYLE
  2
STANDARD
 70
     0
 40
0.0
 41
1.0
 50
0.0
 71
     0
 42
0.2
  3
txt
  4

  0
STYLE
  2
ARIAL
 70
     0
 40
0.0
 41
1.0
 50
0.0
 71
     0
 42
0.2
  3
txt
  4

  0
ENDTAB
  0
TABLE
  2
VIEW
 70
     0
  0
ENDTAB
  0
TABLE
  2
UCS
 70
     0
  0
ENDTAB
  0
TABLE
  2
APPID
 70
     1
  0
APPID
  2
ACAD
 70
     0
  0
ENDTAB
  0
TABLE
  2
DIMSTYLE
 70
     1
  0
DIMSTYLE
  2
STANDARD
 70
     0
  3

  4

  5

  6

  7

 40
1.0
 41
0.125
 42
0.0625
 43
0.25
 44
0.0625
 45
0.0
 46
0.0
 47
0.0
 48
0.0
140
0.125
141
0.09
142
0.0
143
25.399999999999999
144
1.0
145
0.0
146
1.0
147
0.09
 71
     0
 72
     0
 73
     1
 74
     1
 75
     0
 76
     0
 77
     0
 78
     4
170
     0
171
     2
172
     0
173
     0
174
     0
175
     0
176
   256
177
   256
178
   256
  0
ENDTAB
  0
ENDSEC
  0
SECTION
  2
BLOCKS
  0
BLOCK
  8
0
  2
$MODEL_SPACE
 70
     0
 10
0.0
 20
0.0
 30
0.0
  3
$MODEL_SPACE
  1

  0
ENDBLK
  5
21
  8
0
  0
BLOCK
 67
     1
  8
0
  2
$PAPER_SPACE
 70
     0
 10
0.0
 20
0.0
 30
0.0
  3
$PAPER_SPACE
  1

  0
ENDBLK
  5
1D
 67
     1
  8
0
  0
ENDSEC
  0
SECTION
  2
ENTITIES
  0
LINE
  5
CE
  8
2-7
 10
-0.120714539604716
 20
4.1831711419032747
 30
0.0
 11
5.5879470603952797
 21
4.1831711419032764
 31
0.0
  0
LINE
  5
CF
  8
2-7
 10
-0.120714539604716
 20
7.3233287227032822
 30
0.0
 11
5.5879470603952788
 21
7.323328722703276
 31
0.0
  0
LINE
  5
D1
  8
2-7
 10
5.3281045323952814
 20
3.3863207227032759
 30
0.0
 11
5.3281045323952814
 21
4.1831711419032764
 31
0.0
  0
LINE
  5
D2
  8
2-7
  6
HIDDEN
 10
3.20999422839528
 20
3.3863207227032759
 30
0.0
 11
3.20999422839528
 21
4.1831711419032764
 31
0.0
  0
LINE
  5
D3
  8
2-7
 10
3.20999422839528
 20
3.3863207227032759
 30
0.0
 11
5.3281045323952814
 21
3.3863207227032759
 31
0.0
  0
ARC
  5
12A
  8
2-7
 10
4.2690493803952796
 20
3.1135188767032749
 30
0.0
 40
0.2567257299999997
 50
184.5812200852769
 51
355.41877991472302
  0
LINE
  5
12B
  8
2-7
 10
3.94295079639104
 20
3.3725411947032762
 30
0.0
 11
4.5951479643995201
 21
3.3725411947032762
 31
0.0
  0
LINE
  5
12C
  8
2-7
 10
4.5872739483995186
 20
3.0930136267032751
 30
0.0
 11
3.9508248123910401
 21
3.093013626703276
 31
0.0
  0
LINE
  5
12D
  8
2-7
 10
3.94295079639104
 20
3.3725411947032762
 30
0.0
 11
3.94295079639104
 21
3.3863207227032759
 31
0.0
  0
LINE
  5
12E
  8
2-7
 10
3.9508248123910401
 20
3.093013626703276
 30
0.0
 11
3.9508248123910401
 21
3.3725411947032762
 31
0.0
  0
LINE
  5
12F
  8
2-7
 10
4.1099370963931596
 20
3.093013626703276
 30
0.0
 11
4.1099370963931596
 21
3.3725411947032762
 31
0.0
  0
LINE
  5
130
  8
2-7
 10
4.4281616643974004
 20
3.093013626703276
 30
0.0
 11
4.4281616643974004
 21
3.3725411947032762
 31
0.0
  0
LINE
  5
131
  8
2-7
 10
4.5872739483995186
 20
3.0930136267032751
 30
0.0
 11
4.5872739483995186
 21
3.3725411947032762
 31
0.0
  0
LINE
  5
132
  8
2-7
 10
4.5951479643995201
 20
3.3725411947032762
 30
0.0
 11
4.5951479643995201
 21
3.3863207227032759
 31
0.0
  0
LINE
  5
188
  8
2-7
 10
3.2483879304112802
 20
1.8115175227032749
 30
0.0
 11
3.2483879304112802
 21
3.3863207227032759
 31
0.0
  0
LINE
  5
189
  8
2-7
 10
3.87238795037928
 20
1.8115175227032749
 30
0.0
 11
3.87238795037928
 21
3.3863207227032759
 31
0.0
  0
LINE
  5
18A
  8
2-7
 10
3.2483879304112802
 20
1.8115175227032749
 30
0.0
 11
3.87238795037928
 21
1.8115175227032749
 31
0.0
  0
LINE
  5
18B
  8
ADAPTER
 10
0.3910965003952818
 20
7.7233287355032774
 30
0.0
 11
5.076136020395281
 21
7.7233287355032774
 31
0.0
  0
LINE
  5
18C
  8
ADAPTER
 10
0.3910965003952818
 20
7.7233287355032774
 30
0.0
 11
0.3910965003952818
 21
7.3233287227032768
 31
0.0
  0
LINE
  5
18D
  8
ADAPTER
 10
5.076136020395281
 20
7.7233287355032774
 30
0.0
 11
5.076136020395281
 21
7.3233287227032768
 31
0.0
  0
LINE
  5
1D3
  8
ADAPTER
 10
1.2729862923952799
 20
10.06348629070327
 30
0.0
 11
4.1942462283952811
 21
10.06348629070327
 31
0.0
  0
LINE
  5
1D5
  8
ADAPTER
 10
1.2729862923952799
 20
10.06348629070327
 30
0.0
 11
1.2729862923952799
 21
7.7233287355032774
 31
0.0
  0
LINE
  5
1D6
  8
ADAPTER
 10
4.1942462283952811
 20
10.06348629070327
 30
0.0
 11
4.1942462283952811
 21
9.9650610907032782
 31
0.0
  0
LINE
  5
1D7
  8
ADAPTER
 10
3.6485769195952811
 20
9.9650610907032817
 30
0.0
 11
4.6328289195952808
 21
9.9650610907032764
 31
0.0
  0
LINE
  5
1D8
  8
ADAPTER
 10
4.6328289195952808
 20
9.9650610907032764
 30
0.0
 11
4.6328289195952808
 21
8.636320890703276
 31
0.0
  0
LINE
  5
1D9
  8
ADAPTER
 10
4.6328289195952808
 20
8.636320890703276
 30
0.0
 11
3.6485769195952811
 21
8.636320890703276
 31
0.0
  0
LINE
  5
1DA
  8
ADAPTER
  6
HIDDEN
 10
3.6485769195952811
 20
9.9650610907032764
 30
0.0
 11
3.6485769195952811
 21
8.636320890703276
 31
0.0
  0
LINE
  5
1DB
  8
ADAPTER
 10
4.1942462283952811
 20
8.636320890703276
 30
0.0
 11
4.1942462283952811
 21
7.7233287355032774
 31
0.0
  0
CIRCLE
  5
1DC
  8
ADAPTER
 10
4.3403800913392798
 20
9.3006909907032771
 30
0.0
 40
0.219347573948256
  0
POLYLINE
  5
1DD
  8
ADAPTER
 66
     1
 10
0.0
 20
0.0
 30
0.0
 70
     1
  0
VERTEX
  5
101C
  8
ADAPTER
 10
4.2039981427153092
 20
9.5369114549552432
 30
0.0
  0
VERTEX
  5
101D
  8
ADAPTER
 10
4.0676161940913369
 20
9.3006909907032771
 30
0.0
  0
VERTEX
  5
101E
  8
ADAPTER
 10
4.2039981427153092
 20
9.0644705264513092
 30
0.0
  0
VERTEX
  5
101F
  8
ADAPTER
 10
4.4767620399632531
 20
9.0644705264513092
 30
0.0
  0
VERTEX
  5
1020
  8
ADAPTER
 10
4.6131439885872254
 20
9.3006909907032771
 30
0.0
  0
VERTEX
  5
1021
  8
ADAPTER
 10
4.4767620399632531
 20
9.5369114549552432
 30
0.0
  0
SEQEND
  5
1022
  8
ADAPTER
  0
LINE
  5
225
  8
ADAPTER
 10
0.3910965003952818
 20
7.3233287227032768
 30
0.0
 11
5.076136020395281
 21
7.3233287227032768
 31
0.0
  0
LINE
  5
226
  8
ADAPTER
 10
4.6328289195952816
 20
16.764555080945829
 30
0.0
 11
4.6328289195952816
 21
16.006681040945828
 31
0.0
  0
LINE
  5
270
  8
ADAPTER
 10
4.6328289195952816
 20
16.764555080945829
 30
0.0
 11
3.2900399623952459
 21
17.317804414196281
 31
0.0
  0
LINE
  5
271
  8
ADAPTER
 10
4.0184010243043602
 20
14.916913267126599
 30
0.0
 11
3.2900399623952459
 21
14.61681750769538
 31
0.0
  0
LINE
  5
272
  8
ADAPTER
 10
4.6328289195952816
 20
15.170066840945831
 30
0.0
 11
4.0184010243043602
 21
15.170066840945831
 31
0.0
  0
LINE
  5
273
  8
ADAPTER
 10
4.0184010243043602
 20
15.170066840945831
 30
0.0
 11
4.0184010243043602
 21
14.916913267126599
 31
0.0
  0
LINE
  5
276
  8
ADAPTER
 10
4.6131439885872254
 20
15.111011720945831
 30
0.0
 11
4.6131439885872254
 21
14.8650932824719
 31
0.0
  0
LINE
  5
277
  8
ADAPTER
 10
4.4767620399632531
 20
15.111011720945831
 30
0.0
 11
4.4767620399632531
 21
14.865093282471889
 31
0.0
  0
LINE
  5
278
  8
ADAPTER
 10
4.2039981427153092
 20
15.111011720945831
 30
0.0
 11
4.2039981427153092
 21
14.865093282471889
 31
0.0
  0
LINE
  5
279
  8
ADAPTER
 10
4.067616194091336
 20
15.111011720945831
 30
0.0
 11
4.067616194091336
 21
14.8650932824719
 31
0.0
  0
LINE
  5
27B
  8
ADAPTER
 10
4.0479311540913372
 20
15.111011720945831
 30
0.0
 11
4.6328290285872251
 21
15.111011720945831
 31
0.0
  0
LINE
  5
27C
  8
ADAPTER
 10
4.0479311540913372
 20
15.111011720945831
 30
0.0
 11
4.0479311540913372
 21
15.170066840945831
 31
0.0
  0
LINE
  5
27D
  8
ADAPTER
 10
4.6328290285872251
 20
15.111011720945831
 30
0.0
 11
4.6328290285872251
 21
15.170066840945831
 31
0.0
  0
LINE
  5
27F
  8
ADAPTER
 10
4.1358071684033231
 20
14.82900474215926
 30
0.0
 11
4.5449530142752383
 21
14.82900474215926
 31
0.0
  0
ARC
  5
280
  8
ADAPTER
 10
4.1358071684033231
 20
14.9114740200512
 30
0.0
 40
0.0824692778919425
 50
214.2219499523211
 51
325.77805004767828
  0
ARC
  5
282
  8
ADAPTER
 10
4.5449530142752383
 20
14.9114740200512
 30
0.0
 40
0.0824692778919425
 50
214.22194995232161
 51
325.7780500476789
  0
ARC
  5
283
  8
ADAPTER
 10
4.340380091339286
 20
15.10474904325808
 30
0.0
 40
0.2757443010988207
 50
240.356905410038
 51
299.6430945899599
  0
LINE
  5
36A
  8
DRIVE_INPUT
  6
HIDDEN
 10
2.5367658603952812
 20
7.4020688827032757
 30
0.0
 11
2.5367658603952812
 21
7.7957696827032761
 31
0.0
  0
LINE
  5
36B
  8
DRIVE_INPUT
  6
HIDDEN
 10
2.9304666603952811
 20
7.7957696827032761
 30
0.0
 11
2.9304666603952811
 21
7.4020688827032757
 31
0.0
  0
LINE
  5
36C
  8
DRIVE_INPUT
  6
HIDDEN
 10
2.1824351403952811
 20
7.7957696827032761
 30
0.0
 11
2.1824351403952811
 21
7.3233287227032768
 31
0.0
  0
LINE
  5
36D
  8
DRIVE_INPUT
  6
HIDDEN
 10
3.2847973803952808
 20
7.7957696827032761
 30
0.0
 11
3.2847973803952808
 21
7.3233287227032777
 31
0.0
  0
LINE
  5
36E
  8
DRIVE_INPUT
  6
HIDDEN
 10
2.9304666603952811
 20
7.4020688827032757
 30
0.0
 11
2.5367658603952812
 21
7.4020688827032757
 31
0.0
  0
LINE
  5
36F
  8
DRIVE_INPUT
  6
HIDDEN
 10
2.1824351403952811
 20
7.7957696827032761
 30
0.0
 11
2.5367658603952812
 21
7.7957696827032761
 31
0.0
  0
LINE
  5
370
  8
DRIVE_INPUT
  6
HIDDEN
 10
2.9304666603952811
 20
7.7957696827032761
 30
0.0
 11
3.2847973803952808
 21
7.7957696827032761
 31
0.0
  0
LINE
  5
43C
  8
DRIVE_TANG
  6
HIDDEN
 10
2.191096557995281
 20
8.9871083035032768
 30
0.0
 11
3.2761359627952809
 21
8.9871083035032768
 31
0.0
  0
LINE
  5
43D
  8
DRIVE_TANG
  6
HIDDEN
 10
3.2761359627952809
 20
8.9871083035032768
 30
0.0
 11
3.27613596279528
 21
7.8189980299032751
 31
0.0
  0
LINE
  5
43E
  8
DRIVE_TANG
  6
HIDDEN
 10
2.5367658603952812
 20
7.4020688827032757
 30
0.0
 11
2.9304666603952811
 21
7.4020688827032757
 31
0.0
  0
LINE
  5
43F
  8
DRIVE_TANG
  6
HIDDEN
 10
2.191096557995281
 20
8.9871083035032768
 30
0.0
 11
2.191096557995281
 21
7.818998029903276
 31
0.0
  0
LINE
  5
440
  8
DRIVE_TANG
  6
HIDDEN
 10
2.191096557995281
 20
7.818998029903276
 30
0.0
 11
2.5367658603952812
 21
7.8189980299032751
 31
0.0
  0
CIRCLE
  5
91F
  8
CENTERLINE
 10
2.7336162603952809
 20
15.967310960945831
 30
0.0
 40
0.82677168
  0
CIRCLE
  5
925
  8
2-7
  6
HIDDEN
 10
2.7336162603952832
 20
17.502744080945831
 30
0.0
 40
1.0590551519999989
  0
CIRCLE
  5
926
  8
2-7
  6
HIDDEN
 10
2.7336162603952832
 20
18.211405520945831
 30
0.0
 40
0.312000009984
  0
CIRCLE
  5
927
  8
2-7
  6
HIDDEN
 10
2.7336162603952809
 20
16.794082640945831
 30
0.0
 40
0.312000009984
  0
CIRCLE
  5
928
  8
2-7
  6
HIDDEN
 10
2.7336162603952832
 20
17.502744080945831
 30
0.0
 40
0.25590552
  0
POLYLINE
  5
929
  8
2-7
  6
HIDDEN
 66
     1
 10
0.0
 20
0.0
 30
0.0
 70
     1
  0
VERTEX
  5
1023
  8
2-7
  6
HIDDEN
 10
3.0092068203952831
 20
17.661856364947951
 30
0.0
  0
VERTEX
  5
1024
  8
2-7
  6
HIDDEN
 10
2.7336162603952832
 20
17.820968648950078
 30
0.0
  0
VERTEX
  5
1025
  8
2-7
  6
HIDDEN
 10
2.4580257003952828
 20
17.661856364947951
 30
0.0
  0
VERTEX
  5
1026
  8
2-7
  6
HIDDEN
 10
2.458025700395281
 20
17.343631796943711
 30
0.0
  0
VERTEX
  5
1027
  8
2-7
  6
HIDDEN
 10
2.7336162603952832
 20
17.184519512941591
 30
0.0
  0
VERTEX
  5
1028
  8
2-7
  6
HIDDEN
 10
3.0092068203952809
 20
17.343631796943711
 30
0.0
  0
SEQEND
  5
1029
  8
2-7
  6
HIDDEN
  0
CIRCLE
  5
92A
  8
CENTERLINE
 10
2.7336162603952809
 20
15.967310960945831
 30
0.0
 40
2.2440945600000002
  0
ARC
  5
935
  8
2-7
 10
2.7336162603952809
 20
15.967310960945831
 30
0.0
 40
2.8543307999999992
 50
71.953731254244374
 51
108.0462687457555
  0
LINE
  5
937
  8
ADAPTER
  6
HIDDEN
 10
3.8143249563952821
 20
10.06348629070327
 30
0.0
 11
3.8143249563952821
 21
7.7233287355032774
 31
0.0
  0
LINE
  5
9D7
  8
2-7
 10
2.4216162504112808
 20
1.8115175227032749
 30
0.0
 11
2.4216162504112808
 21
3.0930136267032751
 31
0.0
  0
LINE
  5
9D8
  8
2-7
 10
3.0456162703792811
 20
1.8115175227032749
 30
0.0
 11
3.0456162703792811
 21
3.0930136267032751
 31
0.0
  0
LINE
  5
9D9
  8
2-7
 10
3.0456162703792811
 20
1.8115175227032749
 30
0.0
 11
2.4216162504112808
 21
1.8115175227032749
 31
0.0
  0
CIRCLE
  5
9ED
  8
2-7
  6
HIDDEN
 10
2.7336162603952801
 20
18.21134777731492
 30
0.0
 40
0.11811024
  0
CIRCLE
  5
9EE
  8
2-7
 10
2.7336162603952801
 20
18.21134777731492
 30
0.0
 40
0.0984252
  0
LINE
  5
9F5
  8
2-7
  6
HIDDEN
 10
3.8162934603952809
 20
7.2052184827032777
 30
0.0
 11
1.6509390603952809
 21
7.2052184827032777
 31
0.0
  0
LINE
  5
9F6
  8
2-7
  6
HIDDEN
 10
1.6509390603952809
 20
7.2052184827032777
 30
0.0
 11
1.6509390603952809
 21
7.3233287227032777
 31
0.0
  0
LINE
  5
9F8
  8
2-7
  6
HIDDEN
 10
3.8162934603952809
 20
7.2052184827032777
 30
0.0
 11
3.8162934603952809
 21
7.3233287227032777
 31
0.0
  0
LINE
  5
9FC
  8
2-7
  6
HIDDEN
 10
4.2434588283952834
 20
7.3233287227032768
 30
0.0
 11
4.2434588283952843
 21
6.8902578427032779
 31
0.0
  0
LINE
  5
9FD
  8
2-7
  6
HIDDEN
 10
4.2237737883952828
 20
7.3233287227032768
 30
0.0
 11
4.2237737883952819
 21
6.8508877627032767
 31
0.0
  0
LINE
  5
A00
  8
2-7
  6
HIDDEN
 10
4.0269233883952831
 20
7.3233287227032768
 30
0.0
 11
4.0269233883952831
 21
6.8508877627032767
 31
0.0
  0
LINE
  5
A01
  8
2-7
  6
HIDDEN
 10
4.0072383483952834
 20
7.3233287227032768
 30
0.0
 11
4.0072383483952807
 21
6.890257842703277
 31
0.0
  0
LINE
  5
A02
  8
2-7
  6
HIDDEN
 10
4.0269233883952831
 20
6.8508877627032767
 30
0.0
 11
4.1253485883952834
 21
6.7784975941480994
 31
0.0
  0
LINE
  5
A03
  8
2-7
  6
HIDDEN
 10
4.2237737883952819
 20
6.8508877627032767
 30
0.0
 11
4.1253485883952834
 21
6.7784975941480994
 31
0.0
  0
LINE
  5
A04
  8
2-7
  6
HIDDEN
 10
4.0072383483952807
 20
6.890257842703277
 30
0.0
 11
4.2434588283952843
 21
6.8902578427032779
 31
0.0
  0
LINE
  5
A26
  8
DRIVE_INPUT
 10
2.930466660395282
 20
16.48214156130317
 30
0.0
 11
2.930466660395282
 21
15.452480360588501
 31
0.0
  0
LINE
  5
A27
  8
DRIVE_INPUT
 10
2.5367658603952821
 20
15.452480360588501
 30
0.0
 11
2.5367658603952821
 21
16.48214156130317
 31
0.0
  0
CIRCLE
  5
A2B
  8
DRIVE_INPUT
 10
2.7336162603952809
 20
15.967310960945831
 30
0.0
 40
0.5511811200000001
  0
LINE
  5
A2F
  8
ADAPTER
 10
3.8143249563952821
 20
7.3233287227032768
 30
0.0
 11
3.8143249563952821
 21
7.2170295067032759
 31
0.0
  0
LINE
  5
A30
  8
ADAPTER
 10
3.8143249563952821
 20
7.2170295067032759
 30
0.0
 11
1.65290756439528
 21
7.217029506703275
 31
0.0
  0
LINE
  5
A31
  8
ADAPTER
 10
1.65290756439528
 20
7.3233287227032768
 30
0.0
 11
1.65290756439528
 21
7.217029506703275
 31
0.0
  0
LINE
  5
A33
  8
ADAPTER
  6
HIDDEN
 10
3.5210178603952809
 20
7.7233287355032774
 30
0.0
 11
3.5210178603952809
 21
7.2170295067032759
 31
0.0
  0
LINE
  5
A34
  8
ADAPTER
  6
HIDDEN
 10
1.946214660395281
 20
7.7233287355032774
 30
0.0
 11
1.946214660395281
 21
7.2170295067032759
 31
0.0
  0
LINE
  5
A35
  8
ADAPTER
 10
1.27351698287321
 20
16.006681040945828
 30
0.0
 11
1.6536249259805951
 21
16.006681040945828
 31
0.0
  0
LINE
  5
A36
  8
ADAPTER
 10
3.8136075948099668
 20
16.006681040945828
 30
0.0
 11
4.6328289195952816
 21
16.006681040945828
 31
0.0
  0
LINE
  5
A37
  8
ADAPTER
 10
3.8136075948099668
 20
15.92794088094583
 30
0.0
 11
4.6328289195952816
 21
15.92794088094583
 31
0.0
  0
LINE
  5
A38
  8
ADAPTER
 10
1.27351698287321
 20
15.92794088094583
 30
0.0
 11
1.6536249259805951
 21
15.92794088094583
 31
0.0
  0
LINE
  5
A39
  8
ADAPTER
 10
4.6328289195952816
 20
15.92794088094583
 30
0.0
 11
4.6328289195952816
 21
15.170066840945831
 31
0.0
  0
LINE
  5
A3B
  8
ADAPTER
  6
HIDDEN
 10
1.6536249259805951
 20
8.9297360223405224
 30
0.0
 11
1.2729862923952799
 21
8.9297360223405224
 31
0.0
  0
LINE
  5
A3C
  8
ADAPTER
  6
HIDDEN
 10
3.8143249563952821
 20
8.9297360223405224
 30
0.0
 11
4.6328289195952799
 21
8.9297360223405224
 31
0.0
  0
LINE
  5
A3D
  8
ADAPTER
  6
HIDDEN
 10
1.65290756439528
 20
10.06348629070327
 30
0.0
 11
1.65290756439528
 21
7.7233287355032774
 31
0.0
  0
CIRCLE
  5
A3E
  8
ADAPTER
 10
2.7336162603952809
 20
15.967310960945831
 30
0.0
 40
1.460629967999999
  0
CIRCLE
  5
A3F
  8
ADAPTER
 10
2.7336162603952809
 20
15.967310960945831
 30
0.0
 40
1.080708695999999
  0
CIRCLE
  5
A41
  8
ADAPTER
 10
2.7336162603952809
 20
15.967310960945831
 30
0.0
 40
0.7874016000000002
  0
CIRCLE
  5
A43
  8
ADAPTER
 10
1.3418839323952809
 20
17.359043288945831
 30
0.0
 40
0.12795276
  0
CIRCLE
  5
A45
  8
ADAPTER
  6
HIDDEN
 10
4.4383407243952826
 20
14.98308783276129
 30
0.0
 40
0.12795276
  0
LINE
  5
A48
  8
ADAPTER
  6
HIDDEN
 10
4.2533013483952793
 20
7.7233287355032774
 30
0.0
 11
4.2533013483952793
 21
7.3233287227032768
 31
0.0
  0
LINE
  5
A49
  8
ADAPTER
  6
HIDDEN
 10
3.9973958283952782
 20
7.7233287355032774
 30
0.0
 11
3.9973958283952782
 21
7.3233287227032768
 31
0.0
  0
CIRCLE
  5
CBF
  8
2-7
  6
HIDDEN
 10
0.4895217003952829
 20
15.967310960945831
 30
0.0
 40
0.312000009984
  0
CIRCLE
  5
CC0
  8
2-7
  6
HIDDEN
 10
1.906844580395282
 20
15.967310960945831
 30
0.0
 40
0.312000009984
  0
CIRCLE
  5
CC1
  8
2-7
  6
HIDDEN
 10
1.1981831403952821
 20
15.967310960945831
 30
0.0
 40
0.25590552
  0
POLYLINE
  5
CC2
  8
2-7
  6
HIDDEN
 66
     1
 10
0.0
 20
0.0
 30
0.0
 70
     1
  0
VERTEX
  5
102A
  8
2-7
  6
HIDDEN
 10
1.039070856393159
 20
16.242901520945839
 30
0.0
  0
VERTEX
  5
102B
  8
2-7
  6
HIDDEN
 10
0.8799585723910396
 20
15.967310960945831
 30
0.0
  0
VERTEX
  5
102C
  8
2-7
  6
HIDDEN
 10
1.039070856393159
 20
15.69172040094583
 30
0.0
  0
VERTEX
  5
102D
  8
2-7
  6
HIDDEN
 10
1.3572954243973989
 20
15.69172040094583
 30
0.0
  0
VERTEX
  5
102E
  8
2-7
  6
HIDDEN
 10
1.5164077083995211
 20
15.967310960945831
 30
0.0
  0
VERTEX
  5
102F
  8
2-7
  6
HIDDEN
 10
1.3572954243973989
 20
16.242901520945829
 30
0.0
  0
SEQEND
  5
1030
  8
2-7
  6
HIDDEN
  0
CIRCLE
  5
CC3
  8
2-7
  6
HIDDEN
 10
0.4895794440262004
 20
15.967310960945831
 30
0.0
 40
0.11811024
  0
CIRCLE
  5
CC4
  8
2-7
 10
0.4895794440262004
 20
15.967310960945831
 30
0.0
 40
0.0984252
  0
CIRCLE
  5
CC5
  8
2-7
  6
HIDDEN
 10
1.1981831403952821
 20
15.967310960945831
 30
0.0
 40
1.0590551519999989
  0
CIRCLE
  5
CC6
  8
2-7
  6
HIDDEN
 10
2.7336162603952801
 20
13.72321640094583
 30
0.0
 40
0.312000009984
  0
CIRCLE
  5
CC7
  8
2-7
  6
HIDDEN
 10
2.7336162603952832
 20
15.140539280945831
 30
0.0
 40
0.312000009984
  0
CIRCLE
  5
CC8
  8
2-7
  6
HIDDEN
 10
2.7336162603952801
 20
14.43187784094583
 30
0.0
 40
0.25590552
  0
POLYLINE
  5
CC9
  8
2-7
  6
HIDDEN
 66
     1
 10
0.0
 20
0.0
 30
0.0
 70
     1
  0
VERTEX
  5
1031
  8
2-7
  6
HIDDEN
 10
2.4580257003952801
 20
14.27276555694371
 30
0.0
  0
VERTEX
  5
1032
  8
2-7
  6
HIDDEN
 10
2.7336162603952801
 20
14.11365327294159
 30
0.0
  0
VERTEX
  5
1033
  8
2-7
  6
HIDDEN
 10
3.00920682039528
 20
14.27276555694371
 30
0.0
  0
VERTEX
  5
1034
  8
2-7
  6
HIDDEN
 10
3.0092068203952822
 20
14.59099012494795
 30
0.0
  0
VERTEX
  5
1035
  8
2-7
  6
HIDDEN
 10
2.7336162603952801
 20
14.75010240895007
 30
0.0
  0
VERTEX
  5
1036
  8
2-7
  6
HIDDEN
 10
2.4580257003952819
 20
14.59099012494795
 30
0.0
  0
SEQEND
  5
1037
  8
2-7
  6
HIDDEN
  0
CIRCLE
  5
CCA
  8
2-7
  6
HIDDEN
 10
2.733616260395284
 20
13.723274144576751
 30
0.0
 40
0.11811024
  0
CIRCLE
  5
CCB
  8
2-7
 10
2.733616260395284
 20
13.723274144576751
 30
0.0
 40
0.0984252
  0
CIRCLE
  5
CCC
  8
2-7
  6
HIDDEN
 10
2.7336162603952801
 20
14.43187784094583
 30
0.0
 40
1.0590551519999989
  0
CIRCLE
  5
CCD
  8
2-7
  6
HIDDEN
 10
4.9777108203952798
 20
15.967310960945831
 30
0.0
 40
0.312000009984
  0
CIRCLE
  5
CCE
  8
2-7
  6
HIDDEN
 10
3.5603879403952798
 20
15.967310960945831
 30
0.0
 40
0.312000009984
  0
CIRCLE
  5
CCF
  8
2-7
  6
HIDDEN
 10
4.2690493803952796
 20
15.967310960945831
 30
0.0
 40
0.25590552
  0
POLYLINE
  5
CD0
  8
2-7
  6
HIDDEN
 66
     1
 10
0.0
 20
0.0
 30
0.0
 70
     1
  0
VERTEX
  5
1038
  8
2-7
  6
HIDDEN
 10
4.4281616643974031
 20
15.69172040094583
 30
0.0
  0
VERTEX
  5
1039
  8
2-7
  6
HIDDEN
 10
4.5872739483995231
 20
15.967310960945831
 30
0.0
  0
VERTEX
  5
103A
  8
2-7
  6
HIDDEN
 10
4.4281616643974031
 20
16.242901520945829
 30
0.0
  0
VERTEX
  5
103B
  8
2-7
  6
HIDDEN
 10
4.1099370963931641
 20
16.242901520945829
 30
0.0
  0
VERTEX
  5
103C
  8
2-7
  6
HIDDEN
 10
3.950824812391041
 20
15.967310960945831
 30
0.0
  0
VERTEX
  5
103D
  8
2-7
  6
HIDDEN
 10
4.1099370963931641
 20
15.69172040094583
 30
0.0
  0
SEQEND
  5
103E
  8
2-7
  6
HIDDEN
  0
CIRCLE
  5
CD1
  8
2-7
  6
HIDDEN
 10
4.9776530767643621
 20
15.967310960945831
 30
0.0
 40
0.11811024
  0
CIRCLE
  5
CD2
  8
2-7
 10
4.9776530767643621
 20
15.967310960945831
 30
0.0
 40
0.0984252
  0
CIRCLE
  5
CD3
  8
2-7
  6
HIDDEN
 10
4.2690493803952796
 20
15.967310960945831
 30
0.0
 40
1.0590551519999989
  0
LINE
  5
CDD
  8
2-7
 10
0.0196995201139239
 20
16.851539575416808
 30
0.0
 11
1.849387645924313
 21
18.68122770122719
 31
0.0
  0
LINE
  5
CDE
  8
2-7
 10
5.4475330006766338
 20
16.851539575416808
 30
0.0
 11
3.6178448748662531
 21
18.68122770122719
 31
0.0
  0
ARC
  5
CDF
  8
2-7
 10
2.7336162603952832
 20
15.967310960945831
 30
0.0
 40
2.8543307999999992
 50
161.9537312542443
 51
198.0462687457555
  0
ARC
  5
CE0
  8
2-7
 10
2.7336162603952818
 20
15.967310960945831
 30
0.0
 40
2.8543307999999992
 50
251.9537312542443
 51
288.04626874575553
  0
ARC
  5
CE1
  8
2-7
 10
2.7336162603952801
 20
15.967310960945831
 30
0.0
 40
2.8543307999999992
 50
341.9537312542443
 51
18.046268745755562
  0
LINE
  5
CE2
  8
2-7
 10
0.0196995201139194
 20
15.083082346474869
 30
0.0
 11
1.849387645924305
 21
13.253394220664481
 31
0.0
  0
LINE
  5
CE3
  8
2-7
 10
5.4475330006766338
 20
15.08308234647485
 30
0.0
 11
3.617844874866246
 21
13.253394220664481
 31
0.0
  0
LINE
  5
CE6
  8
2-7
 10
5.5879470603952788
 20
7.3233287227032768
 30
0.0
 11
5.5879470603952788
 21
4.1831711419032764
 31
0.0
  0
LINE
  5
CE7
  8
2-7
 10
5.4475330006766338
 20
7.323328722703276
 30
0.0
 11
5.4475330006766338
 21
4.1831711419032764
 31
0.0
  0
LINE
  5
CE8
  8
2-7
 10
3.6178448748662508
 20
7.3233287227032777
 30
0.0
 11
3.6178448748662508
 21
4.1831711419032764
 31
0.0
  0
LINE
  5
CE9
  8
2-7
 10
1.849387645924311
 20
7.3233287227032777
 30
0.0
 11
1.849387645924311
 21
4.1831711419032764
 31
0.0
  0
LINE
  5
CEA
  8
2-7
 10
-0.120714539604716
 20
7.3233287227032768
 30
0.0
 11
-0.120714539604716
 21
4.1831711419032764
 31
0.0
  0
LINE
  5
CEB
  8
2-7
 10
0.0196995201139295
 20
7.323328722703276
 30
0.0
 11
0.0196995201139295
 21
4.1831711419032764
 31
0.0
  0
CIRCLE
  5
CF5
  8
ADAPTER
 10
1.3418839323952809
 20
14.575578632945829
 30
0.0
 40
0.12795276
  0
CIRCLE
  5
CF6
  8
ADAPTER
 10
4.1253485883952816
 20
14.575578632945829
 30
0.0
 40
0.12795276
  0
CIRCLE
  5
CF7
  8
ADAPTER
 10
4.1253485883952807
 20
17.359043288945831
 30
0.0
 40
0.12795276
  0
LINE
  5
CF9
  8
2-7
  6
HIDDEN
 10
1.459994172395279
 20
6.890257842703277
 30
0.0
 11
1.2237736923952769
 21
6.8902578427032779
 31
0.0
  0
LINE
  5
CFA
  8
2-7
  6
HIDDEN
 10
1.2434587323952779
 20
6.8508877627032767
 30
0.0
 11
1.341883932395278
 21
6.7784975941480994
 31
0.0
  0
LINE
  5
CFB
  8
2-7
  6
HIDDEN
 10
1.4599941723952781
 20
7.3233287227032768
 30
0.0
 11
1.459994172395279
 21
6.890257842703277
 31
0.0
  0
LINE
  5
CFC
  8
2-7
  6
HIDDEN
 10
1.4403091323952779
 20
7.3233287227032768
 30
0.0
 11
1.440309132395277
 21
6.8508877627032767
 31
0.0
  0
LINE
  5
CFD
  8
2-7
  6
HIDDEN
 10
1.440309132395277
 20
6.8508877627032767
 30
0.0
 11
1.341883932395278
 21
6.7784975941480994
 31
0.0
  0
LINE
  5
CFE
  8
ADAPTER
  6
HIDDEN
 10
1.4698366923952819
 20
7.7233287355032774
 30
0.0
 11
1.4698366923952819
 21
7.3233287227032768
 31
0.0
  0
LINE
  5
CFF
  8
2-7
  6
HIDDEN
 10
1.2434587323952779
 20
7.3233287227032768
 30
0.0
 11
1.2434587323952779
 21
6.8508877627032767
 31
0.0
  0
LINE
  5
D00
  8
2-7
  6
HIDDEN
 10
1.223773692395278
 20
7.3233287227032768
 30
0.0
 11
1.2237736923952769
 21
6.8902578427032779
 31
0.0
  0
LINE
  5
D01
  8
ADAPTER
  6
HIDDEN
 10
1.2139311723952819
 20
7.7233287355032774
 30
0.0
 11
1.2139311723952819
 21
7.3233287227032768
 31
0.0
  0
ARC
  5
D02
  8
2-7
 10
1.1981831403952841
 20
3.1135188767032749
 30
0.0
 40
0.2567257299999997
 50
184.5812200852769
 51
355.41877991472307
  0
LINE
  5
D03
  8
2-7
 10
1.5242817243995239
 20
3.3725411947032762
 30
0.0
 11
0.8720845563910451
 21
3.3725411947032762
 31
0.0
  0
LINE
  5
D04
  8
2-7
 10
0.8799585723910453
 20
3.0930136267032751
 30
0.0
 11
1.5164077083995231
 21
3.093013626703276
 31
0.0
  0
LINE
  5
D05
  8
2-7
 10
2.2572382923952841
 20
3.3863207227032759
 30
0.0
 11
0.1391279883952838
 21
3.3863207227032759
 31
0.0
  0
LINE
  5
D06
  8
2-7
  6
HIDDEN
 10
2.2572382923952841
 20
3.3863207227032759
 30
0.0
 11
2.2572382923952841
 21
4.1831711419032764
 31
0.0
  0
LINE
  5
D07
  8
2-7
 10
2.2188445903792839
 20
1.8115175227032749
 30
0.0
 11
1.5948445704112839
 21
1.8115175227032749
 31
0.0
  0
LINE
  5
D08
  8
2-7
 10
2.2188445903792839
 20
1.8115175227032749
 30
0.0
 11
2.2188445903792839
 21
3.3863207227032759
 31
0.0
  0
LINE
  5
D09
  8
2-7
 10
1.5948445704112839
 20
1.8115175227032749
 30
0.0
 11
1.594844570411283
 21
3.3863207227032759
 31
0.0
  0
LINE
  5
D0A
  8
2-7
 10
1.5164077083995231
 20
3.093013626703276
 30
0.0
 11
1.5164077083995231
 21
3.3725411947032762
 31
0.0
  0
LINE
  5
D0B
  8
2-7
 10
1.5242817243995239
 20
3.3725411947032762
 30
0.0
 11
1.5242817243995239
 21
3.3863207227032759
 31
0.0
  0
LINE
  5
D0C
  8
2-7
 10
1.357295424397404
 20
3.093013626703276
 30
0.0
 11
1.357295424397404
 21
3.3725411947032762
 31
0.0
  0
LINE
  5
D0D
  8
2-7
 10
1.0390708563931641
 20
3.093013626703276
 30
0.0
 11
1.0390708563931641
 21
3.3725411947032762
 31
0.0
  0
LINE
  5
D0E
  8
2-7
 10
0.1391279883952838
 20
3.3863207227032759
 30
0.0
 11
0.1391279883952838
 21
4.1831711419032764
 31
0.0
  0
LINE
  5
D0F
  8
2-7
 10
0.8799585723910453
 20
3.0930136267032751
 30
0.0
 11
0.8799585723910453
 21
3.3725411947032762
 31
0.0
  0
LINE
  5
D10
  8
2-7
 10
0.8720845563910451
 20
3.3725411947032762
 30
0.0
 11
0.8720845563910451
 21
3.3863207227032759
 31
0.0
  0
LINE
  5
D11
  8
2-7
 10
3.7926714123952832
 20
3.3863207227032759
 30
0.0
 11
1.6745611083952809
 21
3.3863207227032759
 31
0.0
  0
LINE
  5
D12
  8
2-7
 10
2.4153916923910428
 20
3.0930136267032751
 30
0.0
 11
3.0518408283995209
 21
3.093013626703276
 31
0.0
  0
LINE
  5
D13
  8
2-7
 10
3.0597148443995219
 20
3.3725411947032762
 30
0.0
 11
2.4075176763910431
 21
3.3725411947032762
 31
0.0
  0
ARC
  5
D14
  8
2-7
 10
2.7336162603952832
 20
3.1135188767032749
 30
0.0
 40
0.2567257299999997
 50
184.5812200852769
 51
355.41877991472307
  0
LINE
  5
D15
  8
2-7
 10
1.6745611083952809
 20
3.3863207227032759
 30
0.0
 11
1.6745611083952809
 21
4.1831711419032764
 31
0.0
  0
LINE
  5
D16
  8
2-7
 10
2.4153916923910428
 20
3.0930136267032751
 30
0.0
 11
2.4153916923910428
 21
3.3725411947032762
 31
0.0
  0
LINE
  5
D17
  8
2-7
 10
2.4075176763910431
 20
3.3725411947032762
 30
0.0
 11
2.4075176763910431
 21
3.3863207227032759
 31
0.0
  0
LINE
  5
D18
  8
2-7
 10
3.7926714123952832
 20
3.3863207227032759
 30
0.0
 11
3.7926714123952832
 21
4.1831711419032764
 31
0.0
  0
LINE
  5
D19
  8
2-7
 10
2.5745039763931632
 20
3.093013626703276
 30
0.0
 11
2.5745039763931632
 21
3.3725411947032762
 31
0.0
  0
LINE
  5
D1A
  8
2-7
 10
2.8927285443974031
 20
3.093013626703276
 30
0.0
 11
2.8927285443974031
 21
3.3725411947032762
 31
0.0
  0
LINE
  5
D1B
  8
2-7
 10
3.0518408283995209
 20
3.093013626703276
 30
0.0
 11
3.0518408283995209
 21
3.3725411947032762
 31
0.0
  0
LINE
  5
D1C
  8
2-7
 10
3.0597148443995219
 20
3.3725411947032762
 30
0.0
 11
3.0597148443995219
 21
3.3863207227032759
 31
0.0
  0
LINE
  5
DA5
  8
DRIVE_TANG
  6
HIDDEN
 10
2.9304666603952811
 20
7.4020688827032757
 30
0.0
 11
2.9304666603952811
 21
7.818998029903276
 31
0.0
  0
LINE
  5
DA6
  8
DRIVE_TANG
  6
HIDDEN
 10
2.5367658603952812
 20
7.4020688827032757
 30
0.0
 11
2.5367658603952812
 21
7.818998029903276
 31
0.0
  0
LINE
  5
DA7
  8
DRIVE_TANG
  6
HIDDEN
 10
2.9304666603952811
 20
7.8189980299032742
 30
0.0
 11
3.27613596279528
 21
7.8189980299032751
 31
0.0
  0
CIRCLE
  5
E7A
  8
ADAPTER
 10
2.7336162603952809
 20
15.967310960945831
 30
0.0
 40
2.3425197600000001
  0
TEXT
  5
F8F
  8
0
 10
-0.8168815973347136
 20
11.458822770176759
 30
0.0
 40
0.125
  1
THE ADAPTER SHOWN IN THIS DRAWING IS ONLY TO ILLUSTRATE A TYPICAL ADAPTER
  7
ARIAL
  0
ENDSEC
  0
EOF
